Sevdamız Türkiye

Geri git   Sevdamız Türkiye > Yaşam - Eğlence Dünyası > Konu Dışı > Hobi Dünyası

Yeni Konu aç Cevapla
 
Seçenekler Görünüm
Alt 03-01-2009, 02:56 PM   #1
MeTaLBuLLeT
Bayan lys kurbanı

 
Üyelik tarihi: Jun 2008
Yaş: 25
Mesajlar: 1.027
Tecrübe Puanı: 195
MeTaLBuLLeT has a reputation beyond reputeMeTaLBuLLeT has a reputation beyond reputeMeTaLBuLLeT has a reputation beyond reputeMeTaLBuLLeT has a reputation beyond reputeMeTaLBuLLeT has a reputation beyond reputeMeTaLBuLLeT has a reputation beyond reputeMeTaLBuLLeT has a reputation beyond reputeMeTaLBuLLeT has a reputation beyond reputeMeTaLBuLLeT has a reputation beyond reputeMeTaLBuLLeT has a reputation beyond reputeMeTaLBuLLeT has a reputation beyond repute
Gökhan Kırdar-Yerine Sevemem (TAB)

tabları kendim denedim, hepsi doğru.

e-------------------------------------------------
B-------------------------------------------------
G-------------------------------------------------
D------0-3-2-------0-3-2--2-3-0--0----------------
A-2-2-2-------2-2-2-------------3-3-2-0-2-3-2-0---
E-----------------------------------------------3-

E-------------------------------------------------
B-------------------------------------------------
G-------------------------------------------------
D-------------------------------------------------
A-------0-3-2--------0-3-2--2-3-0--0-2-----0------
E-0-2-3--------0-2-3-------------------3--3--2----

E-------------------------------------------------
B-------------------------------------------------
G-------------------------------------------------
D-------------------------------------------------
A-2-3-0-------------0-----------------------------
E-------3-3-1-1-0-0-------------------------------
MeTaLBuLLeT isimli Üye şuanda  online konumundadır   Alıntı ile Cevapla
Cevapla

Tags
gökhan, kırdaryerine, sevemem, tab
Konuyu Toplam 1 Üye okuyor. (0 Kayıtlı üye ve 1 Misafir)
 
Seçenekler
Görünüm

Yetkileriniz
Yeni Mesaj yazma yetkiniz aktif dir.
Mesajlara Cevap verme yetkiniz aktif dir.
Eklenti ekleme yetkiniz aktif dir.
Kendi Mesajınızı değiştirme yetkiniz aktif dir.

Smileler Açık
[IMG] Kodları Açık
HTML KodlarıKapalı
Gitmek istediğiniz klasörü seçiniz


Bütün Zaman Ayarları WEZ +3 olarak düzenlenmiştir. Şu Anki Saat: 06:37 AM .


Powered by vBulletin Version Gizlenmiştir.
Copyright ©2000 - 2019, Jelsoft Enterprises Ltd.
Bu Site Vbulletin'den Süresiz Lisanslanmıştır.
sevdamiztr.Com %100 Safe Website
Destek olmak için 1 kere tıklayınız. / Kapat !